Lowdown

 

chords:

b/G1 = x20033

b/G2 = x20030

c#/D = x4x232

A7 = x02020  OR  x02025

 

riff 1

e-----3----3s-----5-----3--------------------------------------

B----5-----5s----7------5-------------------------------------
 

DпїЅпїЅпїЅ. b/G1пїЅriff 1

bah, bah, bah

DпїЅпїЅпїЅ. b/G1пїЅriff 1

bah bah

(repeat)

 

D
lowdown,

c#/D

cheatin,

b/G2

aint no need for

A7

repeatin,

пїЅпїЅпїЅ.DпїЅпїЅпїЅпїЅпїЅ.c#/D
so love, dawg, cant ye see?

пїЅпїЅпїЅ...b/G1

That you never gotta fight with me.

DпїЅ.. c#/DпїЅ.. b/G1пїЅпїЅ.. A7пїЅпїЅ. DпїЅ.. c#/DпїЅ.. b/G1

(no words)

 

riff 2

e-----2----------------------------0---0------0---0-------------

B----3----------------------------3---3------3---3------------
G----2----------------------------0---0------0---0------------
D----0--4---2---4---2--4--------0---0-----2----2------------
A----------------------------2------------0---------------------
E----------------------------------------------------------------

(repeat riff 2)

No you never gotta fight with me!  Woah-woah!!


(From the top only this time sing)

 

Hurtin. Beatin. Aint no need for repeatin
so love dawg cant ye see, that you never gotta bleed for me. 
Chancing, glancing, sho nuff mood for romancing 
so love dawg cant ye see that you only gotta dance with me.

Yeah, you only gotta dance with me.

Woah-woah!!