The Way That He Sings 
  
Capo on 1

 

Guitar #1:         Guitar :#2

A  -   X07600      x02220
A* -   X06400      x02100
D  -   x00770      xx0232

Db пїЅ   xx0660      xx3121 
Esus пїЅ 022200      022200
       


intro: A                       A*                                                  D

e------0--0-------0--0------       --0--0--0--0----
B
---0--0--0----0--0--0------       --7--7--7--7----
G
---6--6--6----4--4--4------       --7--7--7--7----
D
---7--7--7----6--6--6------ (X 4) --0--0--0--0----

A---0----------0------------       --0--0--0--0----
E
---------------------------       ----------------

 

 

Opening:

e----------------------------------------------------

B----------------------------------------------------

G----------------------------------------------------

D----------------------------------------------------

A---------------------7-6--4---4h5p4-----------------

EпїЅ4h5---7bпїЅ7b-7b---5------------------7--7--5--4--5--

 

e-----5----------5------

BпїЅ4s6--(6)---4s6---4----

G-----------------------

D-----------------------

A-----------------------

E-----------------------

 

e-----------------------

B-----------------------

G-----------------------   (Repeat the last two riffs

D-----2----------2------    twice over the D A chords

AпїЅ2h4---4----2h4----0---    as in the verses)

E-----------------------

 

D                                                                              Db         A         A*    A    A*

why's it so strange when they say that the world's movin upwards? 
Why's it surreal when my hands feel they cant roll the dice? 
Why's it so great just to wake every day, alive and by your side.

         C#m                                Bm                         E         Esus    E
It's a mystery I guess, there's lots of things I cant find.

                 Bm                                         E                                 A
Its not the way that you look, but your move that catches my eye.

 

D                                                                              Db         A         A*    A    A*
Why's it so soft when the cannons unload on the others? 
Why're we so loud when we say it wont happen to us? 
Why does my mind blow to bits every time they play that song?

                 C#m                                    Bm                                       E         Esus    E
It's just the way that he sings, not the words that he says, or the band.

          Bm                                    E                     A
Im in love with this soul, it's a meaning that I understand.

 

e-----------------------------------------------------
B
-----------------------------------------------------| 
G
---9--9--9--7-7-7--6--6-----9--9--9--7-7-7--6-7-6----| 
D
---7--7--7--7-7-7--7--7-----7--7--7--7-7-7--7-7-7----|(Repeat)
A
-----------------------------------------------------| 
E
-----------------------------------------------------|