Hopefully 
 
capo 2nd Fret

 

|--------7--------------------------------------------| 
|------5---5-----6------6-5---------------------------| 
|----5-------5----------------------------------------| 
|--5-----------5------5-------------------------------| 
|-----------------------------------------------------| 
|-----------------------------------------------------|

 

intro  - F пїЅC-F-C-F-C-G-C
            F пїЅC-F-C-F-C-G

 

hammer-on the Fs like this:

|-0-0---0-0--0-0-0-----------| 
|-1-1---1-1--1-1-1-----------| 
|-0-0h2-2-2--0-0-0--3x-------| 
|-0-0h3-3-3--2-2-2-----------| 
|(0)---------3-3-3-----------| 
|----------------------------|

 
F          C                                             F          C 
I wont ask you where you're goin.  
F          C                                G      C 
I wont ask you where you been.  
F          C                                F                      C 
I know after a million times you get sick of all my lines, 
F                      C                      G  
but I just wanna see you safe again.  
  
F    C                             F                    C 
I know that just now I aint been showin,  
F          C                     G         C 
the kind of love you know that I can.  
F                      C                                 F          C 
So gimmie a little time and you'll be knowinпїЅ 
F            C                   G                    C 
your good lovinпїЅ baby is back...    on top again.  

 

C TURNAROUND:

|--0-0-0---0-0---0------------------------------------| 
|--1-1-1---1-1---1------------------------------------| 
|--0-0-0---0-0---0---0---0---0------------------------| 
|--2-2-0h2-2-0h2-2---0h2-0h2-0h2----------------------| 
|--3-3-3---3-3---3---3--------------------------------| 
|-----------------------------------------------------| 
 
 


F                Em                         F              G       C 
Hopefully it occurs to me that there's one thing I cant stand.  
F               Em                                      F              G              C 
That's the thought of a single day, without your head in my hand. 


F     C    F   C        F    C    G    C

 

F          C                                             F          C
I always hoped you'd be showin,

F          C                                G      C
and now you've shown as much as you can.  
F          C                                             F          C

But after each time im still glowin  

F          C                                G                         F
with a good lovin smile that's yoursпїЅ until the end.

C                         F  
     aaahhh, aahh       aaahhh, aahh

C                         F  
     aaahhh, aahh       aaahhh, aahh

C TURNAROUND

 

F                Em                         F              G       C 
Hopefully it occurs to me that there's one thing I cant stand.  
F               Em                                      F              G              C 
That's the thought of a single day, without your head in my hand.