Honest Man 
  
G riff (guitar 1):
e-----3----------------------- 
B-----3----------------------- 
G-----0---0-0--0-------------- 
D-----0---0-0----3p-2p-0------   (X 4)
A-----2----------------------- 
E--3--3-----------------------

 

G riff (guitar 2):

e----------------------------------------------

B----------------------------------------------

G----------------------------------------------

D-----s5-s5---5--3-2-------s5-s5---5--3-2------   (X 4)

A--------------------5--------------------5----

EпїЅ-3--------------------3----------------------


G.......................G riff...G.....G riff...G 
Try to walk this earth an honest man 
C.............Fmaj........C.............G riff 
But evil waves at me its ugly hand 
......D 
The radar watches   
C....Fmaj....G riff 
me from above 

Shouting  down you'll never 
C...........Fmaj....G riff 
make it on this earth 
  

Sometimes this world wil leave you, lord, 
C.........Fmaj........C 
Kicking and a-screaming 
Am 
Wondering if you'll see the next day 
D                     
e--------3--------3--------3---------3-----
through             
B--3h-5-----3h-5-----3h-5-----3h-5---------

  

But as for me I do believe that 

Good luck comes from trying 
    G 
So until I get mine I will   
D 
work me the whole day   

through

Guitar 1 plays intro part for guitar 1 while guitar 2 plays:

 

e---------------        ------------------------------
B-----------8---        --8--6--8--6--8--6--8--6--8--- 
G-----5--7------  (X 3) --7--7--7--7--7--7--7--7--7---
D--5------------        ------------------------------
A---------------        ------------------------------
E---------------        ------------------------------