Dance Floors

 

INTRO:

   D

e------8-8----8-----------8-8----8------

B-пїЅ9b------9b---9b~---пїЅ9b-----9b---9b~--

G-------------------10------------------

D---------------------------------------

A---------------------------------------

E---------------------------------------

 

   D

e------8-8----8-------------------------

B-пїЅ9b------9b---9b~---пїЅ9h11p9--7пїЅ-5--7--

G-------------------10------------------

D---------------------------------------

A---------------------------------------

E---------------------------------------

 

   G         Bm         C     G

e----------------------------------

B----------------------------------

G----------7-----------------------

D------7h9-------7h9--5----2--0----

A----------------------------------

E----------------------------------

 

   G     Bm         C      D

e-----------------------------------------------

B--------------------------7--8-8-7-------------

G-----0пїЅ2s4---2--0-----0---7--7-7-7---9bпїЅ9b--7--

D--2----------------2------7--------------------

A-----------------------------------------------

E-----------------------------------------------

 

G                    Bm                 C                    G

daybreak. nightfall. long as I believe

   C                                     G  
there ain't nothing glowin like this skin you're showin and   
   Am                         D

the keys you gave to me

 

G                    Bm                                C                              G
nightjails. poolhalls. some things are everywhere

               C                         G  
so for the past I'm diggin a grave so big,

          Am                    D

it will swallow up the sea

 

        Am                      D              G     Em
oh I know, yeah I know that it's easy

                      Am         D               G

when thereпїЅs  trouble waitin for   me 
        Am                      D              G     Em
oh I know, yeah I know that it's easy

                Am       D                 G

there's no trouble waitin for   me

 

 

G                           Bm                                 C                             G
dancefloors. headlights. in my blood there's gasoline

            C                    G          
for an urban boy on a dirty tour

    Am               D

I never felt so clean

G              Bm                           C                      G
loaded questions in an automatic world

 C                           G  
you just won't be seein the things you need,

     Am                         D

as if you thought you would Oooohh-oooooohhh

        Am                      D              G     Em
oh I know, yeah I know, it's never easy...

                     Am    D               G

when there's trouble waitin for me 
         Am                     D              G     Em
oh I know, yeah I know that it's easy

                Am       D                 G

there's no trouble waitin for   me

 

Outro:

 

rhythm guitar stays on  G and echoes this lick:

e-----------------------

B-----------------------

G-----------------0-----

D-------------0---------

A--------0h2------------

E--3--3-----------------