Golden

 

 

Capo on 1

 

The tuning is E minor = EBEGBe
  
 Opening riff:
e-------------------------------------------------------
B--0--0--2--2--2--2--4--4--4--4--5--5--5--5--7--7----7-- 
G---1--1--1--1--2--2--2--2--4--4--4--4--6--6--6--6--6--- 
E----------------------------------------------5---5---- 
B----0------0------0------0-----0-----0------0---------- 
E-------------------------------------------------------
 
000100
 watchin' a stretch of road,

002200

miles of light explode.

004400

driftin' off a thing

005670  

i'd never done before

watchin' a crowd roll in.

out go the lights it begins.

a feelin' in my bones

i never felt before...

007890  005670

mmm...

007890  005670

555655            777877

people always told me.

000100                        099999

that bars are dark and lonely
555655               777877.................000100

and talk is often cheap and filled with air.

555655                        777877

sure sometimes they thrill me

000100                        099999
but nothin' could ever chill me.

555655               777877.................000100

like the way they make the time just disappear

2nd Guitar

e--12-12-9-------------12 ----
B----------12пїЅ---12/14--------

OPENING RIFF

000100
feelin' you are here again.

002200

hot on my skin again.

004400

feelin good a thing

005670  

 i'd never known before

000100
what does it mean to feel?

002200

millions of dreams come real
004400

a feelin' in my soul

005670  

i'd never felt before...

007890  005670

mmm...

007890  005670

555655            777877
and you always told me.

000100                        099999

no matter how long it holds me

555655               777877.................000100

if it falls apart or makes us millonaires.

555655            777877

you'll be right here forever.

000100                        099999

we'll go thru this thing together
555655               777877.................000100

and on heaven's golden shore we'll lay our heads
 

INTRO RIFF пїЅ  007890  005670  (repeat and fade)
 

2nd Guitar OUTRO:


eпїЅ-0-0-2-0-4-0-----4-4-5-7------ 
B--------------2-0----------2---