I will sing you songs 


D* (x07600)  (Strum and let ring for a bar twice, then on to the first riff)


RIFF 1:

e--0----------------------------

B--0----------------------------

G--6----6--7--9--6------2пїЅ4s6---

D--7----7--7--7--7---4---------- (X 4)

A--0----------------------------

E-------------------------------

 

RIFF 2:

e---2----------5-------------3-----------2-----2-------

B---3---5s--7-------3s---5---------2h--3-----3----3----

G---2--------------------------------------------------

D---0--------------------------------------------------

A------------------------------------------------------

E------------------------------------------------------

 

e-------2-----2p--0----------------2------2p--0--------

B-------3---3--------3-------------3---3---------3-----

G-------0--------------------------0-------------------

D-------0-------------------0------0-------------------

A-----------------------0h2----------------------------

E---3---3----------------------3---3------------------- 




I will sing to you of greater things...  

money, gold, and diamond rings 

just don't make it  
G                                  D 
last any longer than it has to 
 
D 
stories of the greater things...  

fill your heart and soul with beer (tears) 

just don't make it  
G                                  D 
last any longer than it has to 
 

(repeat RIFF 2 X 4)



I will sing to you of greater things...  

money, gold, and diamond rings 

just don't make it  
G                                  D 
last any longer than it has to 
 
D

stories of the greater years...  
G

what's in here won't disappear 
C

just don't make it

G                                  D

last any longer than it has to 
 


RIFF 3:                               D               D/C#            G

e--------------------------------------

B--------------------------------------

G---------------------2-----2----------

D---0-2--5--4--2-0-0----0-----0--------

A-------------------------4-----0------

E---------------------------------3----