easy morning rebel


Capo on 1

 

VERSE:  

      G                    C                                 G

e-----------0--0--0--0--0--3--3--3----

B-----------1--1--1--1--1--3--3--3----

G-----------0--0--0--0--0--0--0--0----

D-----------2--2--2--2--2--0--0--0----

A-----0--2--3--3--3--3--3--2--2--2----

E--3-----------------------3--3--3----

well the easy mornin rebel, well he has come.

come down from heaven, all bathed in sun
he'll take to flyin, he'll take to the road...

as long as he's movin to get dey blood!
e--------------0----

B--------------3----

G--------------2----

D-----------0--0----

A-------------------

E--3--2--0----------

D

he'll be the water if you'll be the wine.

C

sent down from heaven in this earthly disguise
G

 

VERSE(as before):

well the evening rebel, his heart is stone.

this earthly body... just a temporary home
a dream of movin moves on thru the night
and he sure looks good when he moves in the light
he'll be the water if you'll be the wine.

sent down from heaven in this earthly disguise

G walk-down to D (tempo slows with walk-down)

 

D

black hearted ruler? I only knew...
G

that loving moment I had with you

 

OUTRO:

e------3--3--3--------------

B------3--3--3--------------

G------0--0--0--------------

D------0--0--0--------------   X 4

A------2--2--2----1----1----

E---3--3--3--3--3----3------

 

   G

e----------------------------

B----------------------------

G----------------------------

D-------------------3---5----  X 12

A--------1--3пїЅ1-3s5---5------

E--1--3----------------------

 

   G        C

e--3--3--3--0---0----

B--3--3--3--1---1----

G--0--0--0--0---0----

D--0--0--0--2---2----  X 8

A--2--2--2--3---3----

E--3--3--3-----------

 

   G                 C

e-----------------------------------------

B-----------------------------------------

G--7-7-7-5--------3--7-7-7-5--3пїЅ5p3пїЅ5p3---

D--5-5-5-3--3пїЅ3h5----5-5-5-3--------------  X 12

A-----------------------------------------

E-----------------------------------------