Run Thru 
My Morning Jacket  
It Still Moves 


tabbed by Tom Barton
 
okay, two basic sections to the song - A&B 
 
A, follows the same basic Fm, Eb, C#, C pattern as such: 
 
|----------------------------------------------------------------------- -| 
|----------------------------------------------------------------------- -| 
|--10--8--6--5---------------------------------------------------------- -| 
|--10--8--6--5---------------------------------------------------------- -| 
|--8---6--4--3---------------------------------------------------------- -| 
|----------------------------------------------------------------------- -| 
 
 
there are other basic moving parts that are based on arpeggios etc from the  
main chord at that time.  
 
the intro/recurring lead line through section A is as such: 
 
 
 
|-------11--13----------11--13---------11--13--11----------------------- -| 
|-11/13----------11/13-----------11/13------------14--13-13------------- -| 
|----------------------------------------------------------------------- -| 
|----------------------------------------------------------------------- -| 
|----------------------------------------------------------------------- -| 
|----------------------------------------------------------------------- -| 
 
 
|------------------11b-------------------------------------------------- -| 
|-13-13--11-----11b---11b-11-11--13-13-11----11-11---------------------- -| 
|-----------13----------------------------13-------13-12-13-12-13-12---- -| 
|----------------------------------------------------------------------- -| 
|----------------------------------------------------------------------- -| 
|----------------------------------------------------------------------- -| 
 
 
this will get you through the main part of the song - the 'middle 8' section 
gets a bit interesting with the distorted bass, but you can mimic it just the 
same with some thick fuzz (pi big muff, for instance).  
 
 
3 basic parts of section B that you can alternate/repeat for as long as  
you feel like jamming: 
 
    -- -- part 1 -- -- --      -- part 2 (8va of part 1)  
|----------------------------------------------------------------------- -| 
|-----------------------------------------------------9----------------- -| 
|----------------------------------------10-8-10-8-10---10-8-10--------- -| 
|-----------------6---------------------------------------------8-10-8-- -| 
|-------8-6-8-6-8---8-6-8-----6----------------------------------------- -| 
|-------------------------6-8------------------------------------------- -| 
 
 
  -- -- -- part 3 -- -- -- 
|--------------8-------------8------------------------------------------ -| 
|----9-8-9-8-9---9-8-9-8---8-------------------------------------------- -| 
|------------------------8---------------------------------------------- -| 
|----------------------------------------------------------------------- -| 
|----------------------------------------------------------------------- -| 
|----------------------------------------------------------------------- -| 
 
 
from here, take it back into the lead/section A part for some mighty powerful 
"oh shit, run"'s   
- the very last bit is built on power chords with the root of each following 
in part 1 of section B (exception being the octave Eb, which can be fingered 
x-11-13-13-x-x) 
 
enjoy! corrections/suggestions always welcome -