Heartbreakin Man


Capo 1st fret: 
 
Intro: 
 
          A                           G                              Em

e---5------------3------------0--0-------0-------0--0-----

B---5------------3------------0--0-------0-------0--0-----

G---6---7p5-7p5--4---5p3-5p3--0--0пїЅ2p0-2p0--2b3--0--0-----    X 3

D---7---5---5----5---3---3----2--2-2-----2--2----2--2-----

A---7---7---7----5---5---5----2--2-2-----2--2----2--2-----

E---5------------3------------0--0-------0-------0--0-----

 

          A                                                           G                                             Em

e---5------------5------------3--------3--3-------0--0-----

B---5------------5------------3--------3--3-------0--0-----

G---6---7p5-7p5--6---7p5-7p5--4--5p3-5p3--5b3-5b3-0--0-----  

D---7---5---5----7---5---5----5--3-----3--5-------2--2-----

A---7---7---7----7---7---7----5--5-----5--5-------2--2-----

E---5------------5------------3--------3--3-------0--0-----

 

 

        D                              G                                    D              G                  Gm            D
e-------------2--3---2-----------2----2-------------3---2--

B--3----3--5------------5--3--5-----5---5пїЅ5h7p5--3--3---3--

G----------------------------------------------------------

D----------------------------------------------------------

A----------------------------------------------------------

E----------------------------------------------------------

  
 
    D          G             D                                     G   Gm 
2o times i wish you'd understand, that you're breakin the  
 Gm                          D                
heart of this heartbreakin man.

 

D            G

20 times i wish you'd use  
      D       
the door, cause  
           G              Gm                D     
you're makin this heart want some more.

G              Gm              D    

oooooo  
 

 

REPEAT ALL