The Bear 
 
Capo on 3


E---2h3--3-3------2h3--3-3-------- 

 

G


G     Bm               C                                                             G
Bad idea to go down to the pier by your self after dark 
G     Bm                        C                                                                
Bad idea cause they're down on their luck and they've lost touch with their  
              G
bleeding hearts 
 
G     Bm               C                                                                   G 
Bad idea cause I've felt that way and I know I shouldn't have gone 
G           Bm                C                                                      G 
Time is near to come forward with whatever killed your spark 
 

    G           Am          C               Am

e---------------------------------------------------------------

B---6-----6------6-----6------10-----11----11--10----11----11---

G-----7-7---7-7----7-7---7-7------12-----12--------12-----12----

D---------------------------------------------------------------

A---------------------------------------------------------------

E---------------------------------------------------------------
G     Am       C   Am    G

There's still time for you 
G     Am            C          Am                        G

to change your mind or whatever else you do 
G     Am       C        Am    G 
There's still time     whoaaaa 
 G     Am       C   Am    G

       whoaaaaaaaaaaa

 

REPEAT ALL


Outro   (rhythm guitar stays on G)  Repeat 4 times

e----------------------------------

B--13---13---13---15---15---15-----

G-----15---15--15----15---15--15---

D----------------------------------

A----------------------------------

E----------------------------------


     Am         Fmaj       Em

B-----------------0--------0-------

G--------------------0---2---0-----
     Forever...   oh                                                                     (x 5)