oLD SEPTEMBER BLUEs 
 

INTRO:

       A                                 D      Dm
e-----------------2---1----1-----

B--2--0--2--2--2--3---3----3-----

G--2--2--2--0--2--2---2----2----- (X 3)

D--2-----2--------0---0--0---0---

A--0-----0-----------------------

E--------------------------------

 

       A                                 E
e-----------------0--0--0--0-----

B--2--0--2--2--2--0--0--0--0-----

G--2--2--2--0--2--1--1--1--1-----

D--2-----2--------2--2--2--2-----

A--0-----0--------2--2--2--2-----

E-----------------0--0--0--0-----

 

guitar two plays same basic patterns using these chords:

D = xxx999  Dm = xxx979  E = xxx(11)(11)(11)

 

AпїЅпїЅпїЅпїЅпїЅпїЅпїЅпїЅ......пїЅпїЅDпїЅDm 
all alone at the end of the day.  
AпїЅпїЅпїЅпїЅпїЅпїЅпїЅ......пїЅпїЅпїЅDпїЅDm 
really tired it's time to hit the hay.  
AпїЅпїЅпїЅпїЅпїЅпїЅпїЅ......пїЅпїЅпїЅDпїЅDm 
it was always good to hear you say 


guitar 1:   Bm                                        E

guitar 2 (plays riff throughout chorus):

e-0-----0------0----0-----0-----0------

B---2-----2------2----2-----2-----2----

G-----2-----2-----------2-----2--------

D--------------------------------------

A--------------------------------------

E--------------------------------------

     "you never were a drawback,  
      BmпїЅпїЅпїЅпїЅ..пїЅпїЅпїЅE 
      you always were an asset,  
      BmпїЅпїЅпїЅпїЅпїЅ..пїЅпїЅE 
      you never were a drawback,  
     пїЅпїЅпїЅпїЅпїЅ. AпїЅпїЅпїЅпїЅпїЅпїЅпїЅпїЅпїЅпїЅDпїЅDm 
     no you weren't."  
 

INTRO


BmпїЅпїЅпїЅпїЅпїЅ.пїЅпїЅE 
put away your corset,  
BmпїЅпїЅпїЅпїЅпїЅ.пїЅпїЅE 
put away your shoe,  
BmпїЅпїЅпїЅпїЅ.пїЅEпїЅпїЅпїЅ...пїЅ. AпїЅпїЅпїЅпїЅпїЅпїЅпїЅDпїЅDm 
put away the old September blues. 
 

INTRO

 

A                               D           Dm  

Ooooohhhh, ooh-ohh

Ooooohhhh, ooh-ohh