iF ALL ELSE FAILs


Capo on 7

 

e---0-0---0-0----0-0-----0-------0--------

B---2-0---2-2----2-2-----2--0-0--2--0-0---

G---2-2---2-2----2-2-----2--2-2--2--2-2---

DпїЅ2-----1------0---------2--2-2--2--2-2---  (X 2)

A---------------------0----------0--------

E-----------------------------------------

 

e-----0-0-----0-0-----0-------0--------

B-----2-2-----2-2-----2--0-0--2--0-0---

G-----2-2-----2-2-----2--2-2--2--2-2---

D--1-------0----------2--2-2--2--2-2---

A------------------0----------0--------

E--------------------------------------

   surely your lips deceive me.

   surely i know you're fine. 
   and if we get too close this evening,

   well apart we'll grow in time...

 

E            A

       and i know (that you're mine).

       and i know (that you're mine).

       and i know (that you're mine).

       and i know (that you're mine).

 

Am                             Em

     oooo. sherie your heart,

     i'll take you there, it ain't far.

     and if all else fails, i'll come running back,

     wonderin where you went with my heart.

 

e---0-0---0-0----0-0-----0-------0--------

B---2-0---2-2----2-2-----2--0-0--2--0-0---

G---2-2---2-2----2-2-----2--2-2--2--2-2---

DпїЅ2-----1------0---------2--2-2--2--2-2--- 

A---------------------0----------0--------

E-----------------------------------------

 

e-----0-0-----0-0-----0-------0--------

B-----2-2-----2-2-----2--0-0--2--0-0---

G-----2-2-----2-2-----2--2-2--2--2-2---

D--1-------0----------2--2-2--2--2-2---

A------------------0----------0--------

E--------------------------------------

 sherie your arms deceive me,

 and if we get too close this evening,

 well apart we'll grow in time...

E            A                               E

       and i know (that you're mine).

       and i know (that you're mine).

       and i know (that you're mine).

       and i know (that you're mine).

 

 

Am                           Em

      sherie your heart,

      i'll take you there, it ain't far.

      and if all else fails, i'll come running back,

      wonderin where you went with my heart.

      with my heart.

      with my heart.

      with my heart.

 

e---0-0---0-0----0-0-----0-------0--------

B---2-0---2-2----2-2-----2--0-0--2--0-0---

G---2-2---2-2----2-2-----2--2-2--2--2-2---

DпїЅ2-----1------0---------2--2-2--2--2-2---  (X 2)

A---------------------0----------0--------

E-----------------------------------------