eVELYN IS NOT REAl 
 

EпїЅпїЅпїЅпїЅ..BпїЅпїЅпїЅпїЅпїЅпїЅE. .....Eriff

Eriff:
e--0--------------0----------------

B--0--------------0----------------

G--1-2p-1p-0-0h1--1----------------

D--2--------------2----------------

A--2--------------2---------------

E--0--------------0----------------

 

Lead guitar intro:

e-----------------------------------

B-----------------------------------

G---------1-4--4-4-2-1---4p2p1-1----

D--2--2-4---------------------------

A-----------------------------------

E-----------------------------------

 

e-----------------------------------

B-----------------------------------

G----------1------------------------

D---2--2-4---4---4-4-2пїЅ1h2пїЅ-1-1h2---

A-----------------------------------

E-----------------------------------


ev-O-lyn i hope this cant be true.  
EпїЅпїЅпїЅпїЅпїЅBпїЅпїЅпїЅпїЅпїЅпїЅпїЅ.E.....Eriff 
ev-Olyn, you know my hearts with you.  
AпїЅпїЅпїЅпїЅпїЅпїЅпїЅпїЅпїЅпїЅпїЅ..E 
dont try to tell me there's another boy,  
AпїЅпїЅпїЅпїЅпїЅпїЅпїЅпїЅпїЅ..пїЅEпїЅпїЅпїЅC#m 
don't try to use me like a lovers toy.  
EпїЅпїЅпїЅпїЅпїЅ.BпїЅпїЅпїЅпїЅпїЅпїЅE..... Eriff 
ev-Olyn you know this cant be true.  
EпїЅпїЅпїЅпїЅпїЅ.BпїЅпїЅпїЅпїЅпїЅпїЅE.....Eriff 
from what i found the ground remains with you.  


CHORUS:

Guitar l(for first two lines.  Goes back to lead intro for last line):

e-------------------------------0--0--0---0---0------

B-----------4-5-5-5-5-5-4-2-0----0--0--0---0---0-----

G---------6---------------------------------1---1----

D---7---7--------------------------------------------

A----------------------------------------------------

E----------------------------------------------------

AпїЅпїЅпїЅпїЅпїЅпїЅпїЅпїЅпїЅпїЅпїЅ..E 
don't try to tell me theres another boy,  
AпїЅпїЅпїЅпїЅпїЅпїЅпїЅпїЅпїЅпїЅпїЅ..E..........C#m 
don't try and use me like a lovers toy.  
EпїЅпїЅпїЅпїЅ..BпїЅпїЅпїЅпїЅпїЅпїЅE. .....Eriff 
ev-O-lyn i hope this cant be true.  

 

"aw take it away johnny!!!" 
 
SOLO:

     E                                                     B                                  E

e---15----15---15---15---17---17---17---15----15-15--

B-17--17-----17---17--17----17---17--17----17-17-17--

G----------------------------------------------------

D----------------------------------------------------

A----------------------------------------------------

E----------------------------------------------------

                                            B

e--15-----15-15-15---12~-12--12-12---12-12--12-12----

B-s17--17-17-17-17-----------------------------------

G----------------------------------------------------

D----------------------------------------------------

A----------------------------------------------------

E----------------------------------------------------
                                     E

e--12-12--12---15~-12----12-15~-12----12--12-12-10---

B---------------------15-----------15----------------

G----------------------------------------------------

D----------------------------------------------------

A----------------------------------------------------

E----------------------------------------------------

  A                              E

eпїЅ20~-17----15-17---17~-17--17---s15-----15--15-15-15

B--------17---------20------20---s17--17-17--17-17---

G----------------------------------------------------

D----------------------------------------------------

A----------------------------------------------------

E----------------------------------------------------

                                                          A

e-s15-----15--15-15\---------------------------------

B-s17--17-17--17-17\---------------------------------

G------------------------------------------14s14-----

D-----------------------------12----12-14------------

A-----------------------12-14----14------------------

E----------------------------------------------------

                                                 E                                             C#m

e----------------------------15----------------------

B-12~--12-12-12-12-------17-----17---17--------------

G-14~--14-14-14-14--14~----16-----16----14~--14-12~--

D--------------------------------------------------14

A----------------------------------------------------

E----------------------------------------------------

   E                B                  E

e----------------------------------------------------

B----------------------------------------------------

GпїЅs11~-12---------------------------------------------

D----------14-12--------------------------------------

A----------------14пїЅs11--12--10-12-10-5s7----5h7пїЅ5h7-7

E-----------------------------------------------------


REPEAT CHORUS (donпїЅt try to tell me)

 

Verse (Slow down to a crawl)

EпїЅпїЅпїЅпїЅпїЅ.BпїЅпїЅпїЅпїЅпїЅпїЅE..... Eriff 
ev-Olyn you know this cant be true.  
EпїЅпїЅпїЅпїЅпїЅ.BпїЅпїЅпїЅпїЅпїЅпїЅE.....Eriff 
from what i found the ground remains with you.  

EпїЅпїЅпїЅпїЅпїЅ.BпїЅпїЅпїЅпїЅпїЅпїЅE..... Eriff 
ev-Olyn you know this cant be true.  
EпїЅпїЅпїЅпїЅ              B                       E

Broke my heart and left me here so blue