wAR BEGUn

C#7 F# A B X 2

 

C#7 F#

stolen as the war begun,

A B

this time your soul is my one.

C#7 F#

stolen as the war begun,

A B

this time your soul is my one.

 

C#7 F# A B
i belong to a race of robots, drownin out my one.

C#7 F# A B

anytime your war gets out of hand i'll take it on.

 

C#7 F#

stolen as the wars begun,

A B

 

C#7 F#

yeah as that war begun

A B

this time your soul is my one.

 

Bbm Fm F# C#7
I'D MOVE ON, but i know you'll need me some day.

Bbm Fm F# C#7
I'D roll ON, but i know you'll need me some day.

 

Fm Cm

 

Fm C#7

Oh yes you will

Fm C#7

oooohhhoooooooo

 

Solo over verse chords:

C#7 F# A B

e---------------------------------------

B--6------46b7~6---4-7-9---10--9-------

G------6--------------------------------

D---------------------------------------

A---------------------------------------

E---------------------------------------

 

 

B

e---------------------------------------------------

B--9-10-12-10-9-10-9--9-----------------------------

G-------------------11-11-10-1110-10---10s1113---

D-------------------------------------13------------

A---------------------------------------------------

E---------------------------------------------------

 

 

e-----------------11--12-11------

B-----10-12-13B14-----------14---

G--13----------------------------

D--------------------------------

A--------------------------------

E--------------------------------

 

 

 

e--9-10-10--12---10-9----9------------------

B---------------------12---12----9--10--9---

G-----------------------------11------------

D-------------------------------------------

A-------------------------------------------

E-------------------------------------------

 

 

 

e--------------------------------

B--------------------------------

G--------------------------------

D--------------------------------

A--------------------------------

E--------------------------------