pICTURE OF YOu

1st guitar for intro and first part of verse:

e---------------|--------------|

B---------------|--------------|

G---------------|--------------|

D-------6----6--|------4----4--|

A-------7----7--|------5----5--|

E-0h5------5----|-0h2-----2----|

 

2nd guitar

e---------------|--------------|

B---------------|--------------|

G---6---6--6-6--|------7--7-7--|

D---7---5--5-5--|------7--7-7--|

A---7---7--7-7--|------5--5-5--|

E---5---5--5-5--|---2----------|

 

i've got the ocean blue.

i've got a picture of you with

green green eyes

and a cocaine smile

†††††††† Bm G†††††††††††††††† F#m

and a little worry anymore.

 

(intro guitar parts again)

i've got a house in a court,

i've got a car and a door

and a big left arm.

†††††††† Bm G†††††††††††††††† F#m

and a little worry any more,

†††††††† Bm G†††††††††††††††† F#m

cause i tried, i did.

A

sorry, you know im

F#m

sorry you know

†††† D††††††††††††††††††††††††††† ††††† Bm

i'd give you anything on a dime.

A

sorry again.

F#m

cut your little head.

†††† D††††††††††††††††††††††††††† ††††† Bm

but sorry don't mean nothin, if sorry's still in bed.

†††††† Bm (2nd guitar stays on Bm for the rest of the song)

e----------------

B--3--3--2-2-----

G--4--4--2-2-----

D--4--4--0-0----- (x 4)

A----------------

E----------------

 

you dont say "i'll wait up"

you dont say "i'll wait up"

Ooooooooooohhhhhhh- ooooooohhhhhh

 

OUTRO (from live performances)

e--------------------------------

B--------------------------------

G-------2-2------2-2-----2-------

D---2h4------2h4-----2h4--------- (x 4)

A--------------------------------

E--------------------------------

Ooooooooooohhhhhhh- ooooooohhhhhh

 

Repeat: G-------2-2------2-2-----2-------

††††††† D---2h4------2h4-----2h4---------

(each time the Bass or second guitar plays B(m) / / / D / / / G / A / )

 

††† Bm

e-------------------------

B-------------------------

Gó4b5~4b5~4--2-4-2-5~~4---(stay on fourth fret, but bend~)

D-------------------------

A-------------------------

E-------------------------

†††

e-------17-------17-------17-----

B---19----19---19--19---19--19---

G--------------------------------

D--------------------------------

A--------------------------------

E--------------------------------

 

you dont say "i'll wait up" (x 3)

ooohhhh-oohh-ooohh