GIDEON


Opening licks (No Capo):  
   G-----------13-15-----------  
   D--12-13-15-------12-13-12--  
 
   G-----------12-13-12-------- 
   D--12-13-15----------15-13--

 

Capo on 3

 

e----------------1---3----1--------------- 
B--------1---3----------------3----1------
G-----------------------------------------   x2 
D----------------------------------------- 
A----------------------------------------- 
E----3---3---3---3---3----3---3----3------
 
e----------------1---3----1--------------- 
B--------1---3----------------3----1------ 
G-----------------------------------------   x2 
D----------------------------------------- 
A----3---3---3---3---3----3---3----3------
E----------------------------------------- 
 
e----------------0---1----0--------------- 
B--------1---3----------------3----1------ 
G----------------------------------------- 
D----3---3---3---3---3----3---3----3------
A----------------------------------------- 
E----------------------------------------- 
 
e----------------0---1---0---------------- 
B--------1---3----------------3----1------ 
G-----------------------------------------   
D----------------------------------------- 
A----3---3---3---3---3---3----3----3------
E-----------------------------------------

 

e----------------1---3---1---------------- 
B--------1---3---------------3----1-------
G-----------------------------------------   x2 
D----------------------------------------- 
A----------------------------------------- 
E----3---3---3---3---3---3---3----3-------

 

 

 

G                  C  

GIDEON. WHAT HAVE YOU TOLD US AT ALL?
F                               C                                                          G

MAKE A SOUND, COME DOWN OFF THE WALL.

G                                             C
RELIGION - SHOULD APPEAL TO THE HEARTS OF THE YOUNG.
F                               C                                                       G

WHO ARE YOU? WHAT HAVE YOU BECOME?
          F            C               G

YOU ANIMAL. COME ON.

             F      C                            G
WHAT DOES THIS REMIND YOU OF?

 

G            C
TRULY. TRULY WE HAVE BECOME.

F                                              C                                             G

HATED AND FEARED FOR SOMETHING WE DON'T WANT.

G             C
LISTEN. LISTEN.

F                      C                                                       G

MOST OF US BELIEVE THAT THIS IS WRONG.

F                      C                     G
YOU ANIMAL. COME ON.

F                      C                     G

WHAT DOES THIS REMIND YOU OF?
F                      C                     G

ANIMAL. COME ON.

F                      C                     G

WHAT DOES THIS REMIND YOU OF?

F                      C                     G

ANIMAL. COME ON. 

 

 

outro lick 
 
  e---18-16-15----------------- 
  B------------18-16-15-------- 
  G---------------------17-15--