OFF THE RECORD

 

Capo on 9


E x 221xx 
A xx222x (only an Am{xx221x] during intro riff) 
B x 2444x

 

intro
e---------------------------------------------------
B----------------1-1---1---------------------------- 
G----------------2-2---2-----------------1-1---1---- 
D----------------2-2---2-----------------2-2---2---- 
A---------2--0---0-0---0-----------0-----2-2---2---- 
E--000-3--------------------000-3-----0--0-0---0----

 

e---------------------------------------------------
B----------------1-1---1---------------------------- 
G----------------2-2---2-----------------1-1---1---- 
D----------------2-2---2-----------------2-2---2---- 
A---------2--0---0-0---0-----------------2-2---2---- 
E--000-3--------------------000-3b-0--0-------------

 

E
SORRY BOUT THE THINGS THAT I HAD TO SAY пїЅ

                   A                                                  B                                  E

AND I'LL MAKE IT UP TO YOU RIGHT NOW AT THE PENNY ARCADE.
E

IN AN OPEN CAR OR WHEREVER YOU ARE пїЅ

A                                                B                                        E

PUSH YOURSELF TOO HARD AND IT MIGHT GET HOT.

 

  A                                           B
WELL I REALLY DON'T NEED THE CONFUSION пїЅ

AND YOU KNOW I JUST AIN'T THE TYPE
TO GET ALL WRAPPED UP IN THE ILLUSION

OF DOIN SOMETHING THAT I KNOW AIN'T RIGHT - RIGHT RIGHT???

 

E
YOU'VE GOT TO WANT TO RE-ARRANGE AND KEEP IT

A                                 B

OFF THE RECORD. OFF THE RECORD.
E

YOU'VE GOT TO KNOW THAT WE WILL CHANGE AND KEEP IT

A                                 B

OFF THE RECORD. OFF THE RECORD.

 
eпїЅ13p99999пїЅ13p99999--14-13-11/9-11-------------- 
B------------------------------------999-9/14--- 
 
eпїЅ13p99999пїЅ13p99999--14-13-11/9--9/-(16)-------- 
B-----------------------------------------------

 

E

IN A CROWDED ROOM NEAR THE BOX OF BOOM,

                   A                                                  B                                  E

TO AN ARTIFICIAL TUNE, I SEE YOU SWOON.

WELL YOU KNEW ALL THIS WOULD TURN TO MIST

IF YOUR IDEA WASN'T KISSED - WHY'RE YOU SO PISSED?

 

  A                                           B
WELL I KNOW YOU DON'T NEED THE CONFUSION A

ND I KNOW YOU JUST AIN'T THE TYPE.
TO GET ALL WRAPPED UP IN THE ILLUSION

OF DOIN SOMETHING THAT YOU KNOW AIN'T RIGHT - RIGHT RIGHT???

RIGHT RIGHT??? RIGHT RIGHT??? RIGHT RIGHT???

 

E
YOU'VE GOT TO WANT TO REARRANGE AND KEEP IT

A                                 B

OFF THE RECORD. OFF THE RECORD.
YOU'VE GOT TO KNOW THAT WE ARE STRANGE AND KEEP IT

OFF THE RECORD. OFF THE RECORD.
YOU'VE GOT TO KNOW THAT WE WILL CHANGE AND KEEP IT

OFF THE RECORD. OFF THE RECORD COME ON.


Repeat intro

 

Outro stays on E and repeats this riff:

 

e---------------------------
B--------------------------- 
G----------------1-1---1---- 
D----------------2-2---2---- 
A----------------2-2---2---- 
E--000-3b-0--0--------------