DONDANTE


Capo on 3

 

Am

IN A DREAM I SAW YOU WALKIN пїЅ

LIKE A KID ALIVE AND TALKIN пїЅ

пїЅпїЅпїЅ.пїЅ.E

THAT WAS YOU.

 

пїЅпїЅ.пїЅпїЅAm

 e---------------------------- 
B--1------------------------- 
G--0h2p0h2p0h2p0h2p0--------- 
D--0h2p0h2p0h2p0h2p0--------- 
A--0------------------------- 
E----------------------------

IN THE CLASSROOM YOU WERE TEACHIN пїЅ

 ON THE STREETS YOU WERE POLICING

пїЅпїЅпїЅ.пїЅ.E

THAT WAS YOU.

 

пїЅпїЅпїЅпїЅAm
TO THE ONE I NOW KNOW MOST пїЅ

I WILL TELL THEM OF YOUR GHOST

пїЅпїЅпїЅ.пїЅ.E

LIKE A THING пїЅ

пїЅпїЅпїЅпїЅпїЅпїЅпїЅпїЅпїЅ..DmпїЅпїЅпїЅпїЅпїЅпїЅ..Am

THAT NEVER, EVER WAS. Ooh-aah-aah

 

пїЅпїЅпїЅпїЅAm
AND ALL THAT EVER MATTERED

WILL SOME DAY TURN BACK

пїЅпїЅпїЅпїЅпїЅпїЅпїЅпїЅ.пїЅ.E

TO BATTER LIKE A JOKE.

 

пїЅпїЅпїЅпїЅAm
BEHIND THIN WALLS YOU HID YOUR FEELINS пїЅ

TAKE FOUR LEGS TO MAKE A CEILIN

пїЅпїЅпїЅ.пїЅ.E

LIKE A THING.

 

пїЅпїЅпїЅпїЅAm
IN A DREAM I SAW YOU WALKIN,

WITH YOUR FRIENDS ALIVE AND TALKING пїЅ

пїЅпїЅпїЅ.пїЅ.E

THAT WAS YOU.

 

пїЅпїЅпїЅпїЅAm
WELL I SAW IT IN YOUR MOVEMENT пїЅ

AND EVEN THOUGH YOU NEVER KNEW IT пїЅ

пїЅпїЅпїЅ.пїЅ.E
WELL, I KNEW,

 

пїЅпїЅпїЅпїЅпїЅпїЅпїЅпїЅпїЅпїЅпїЅпїЅпїЅ.DmпїЅпїЅпїЅпїЅпїЅпїЅ..AmпїЅпїЅпїЅпїЅ.Dm

JUST HOW SWEET IT COULD BE пїЅ Ooh-aah-aah

пїЅпїЅпїЅпїЅпїЅпїЅпїЅпїЅпїЅпїЅпїЅпїЅпїЅпїЅ.Am

IF YOU'D NEVER LEFT THESE STREETS.

 

 

 

e------------|------------11-11-11b13------------11b13---------------

B----11--11--|--------13---------------------13----------------------
G----10--10--|:------------------------------------------------------
D------------|----3---------------------3----------------------------
A------------|-------------------------------------------------------
E------------|-------------------------------------------------------

 

e------------------------------------------------------------------------

B--------11-12b14--------------------------------------------------------
G-----12------------8--10пїЅ10b12---8---------8---------8--------8----8----
D-----------------------------------10p8h10---10p8h10---108h10---10---10-
A--3---------------------------------------------------------------------
E------------------------------------------------------------------------

 

(Repeat)

 

e---16-15--------------------------------

B---------13-16-13-16пїЅ16b18~16-----------
G----------------------------------------
D----------------------------------------
A----------------------------------------
E----------------------------------------

 

(Repeat five times)

 

e-16-15--------------------------16-15---15---18--18--18--20-20-20-20-20-

B-------13-16-13-16пїЅ-13--16--13------------------------------------------
G------------------------------------------------------------------------
D------------------------------------------------------------------------
A------------------------------------------------------------------------
E------------------------------------------------------------------------

 

AmпїЅпїЅпїЅпїЅпїЅDm
YOU HAD ME WORRIED! SO WORRIED пїЅ

пїЅпїЅпїЅпїЅпїЅпїЅпїЅпїЅпїЅ.Am

THAT THIS WOULD LAST... (x 2)

AmпїЅпїЅпїЅпїЅпїЅ.DmпїЅпїЅпїЅпїЅпїЅпїЅпїЅпїЅпїЅпїЅпїЅпїЅпїЅпїЅпїЅпїЅпїЅ..Am
BUT NOW I'M LEARNING - LEARNING THAT THIS WILL PASS...

 

 

NOTE:  the solo is tab as if there were no capo on the guitar.  So, the 3s you hit are actually open strings with the capo on 3.  I hope that makes sense.